ISO-10303-21;
HEADER;
FILE_DESCRIPTION(('CATIA V5 STEP Exchange'),'2;1');

FILE_NAME('C:\\Users\\Astroboy\\Desktop\\RIDIX\\work\\RDST207.202010.stp','2017-03-08T09:06:31+00:00',('none'),('none'),'CATIA Version 5 Release 19 GA (IN-10)','CATIA V5 STEP AP203','none');

FILE_SCHEMA(('CONFIG_CONTROL_DESIGN'));

ENDSEC;
/* file written by CATIA V5R19 */
DATA;
#5=PRODUCT('RDST207.202010','','STAFFETTA DI RITEGNO\X2\000D\X0\\X2\000A\X0\SCORRIMENTI AUTOMOTIVE\X2\000D\X0\\X2\000A\X0\',(#2)) ;
#1=APPLICATION_CONTEXT('configuration controlled 3D design of mechanical parts and assemblies') ;
#14=PRODUCT_DEFINITION('',' ',#6,#3) ;
#16=SECURITY_CLASSIFICATION(' ',' ',#15) ;
#15=SECURITY_CLASSIFICATION_LEVEL('unclassified') ;
#47=CARTESIAN_POINT(' ',(0.,0.,0.)) ;
#51=CARTESIAN_POINT('Line Origine',(0.,0.,0.)) ;
#55=CARTESIAN_POINT('Limit',(0.,0.,0.)) ;
#56=CARTESIAN_POINT('Limit',(20.,0.,0.)) ;
#63=CARTESIAN_POINT('Line Origine',(0.,0.,0.)) ;
#67=CARTESIAN_POINT('Limit',(0.,0.,0.)) ;
#68=CARTESIAN_POINT('Limit',(0.,20.,0.)) ;
#72=CARTESIAN_POINT('Line Origine',(0.,0.,0.)) ;
#76=CARTESIAN_POINT('Limit',(0.,0.,0.)) ;
#77=CARTESIAN_POINT('Limit',(0.,0.,20.)) ;
#81=CARTESIAN_POINT('Punto.4',(0.,0.,0.)) ;
#83=CARTESIAN_POINT('Axis2P3D Location',(3.5,0.,0.)) ;
#88=CARTESIAN_POINT('Axis2P3D Location',(0.,0.,0.)) ;
#92=CARTESIAN_POINT('Vertex',(4.8267040904,-2.63684046232,0.)) ;
#94=CARTESIAN_POINT('Vertex',(-4.8267040904,2.63684046232,0.)) ;
#97=CARTESIAN_POINT('Axis2P3D Location',(0.,0.,0.)) ;
#106=CARTESIAN_POINT('Axis2P3D Location',(0.,0.,0.)) ;
#110=CARTESIAN_POINT('Vertex',(-3.07153896662,1.67798938511,1.7763568394E-015)) ;
#112=CARTESIAN_POINT('Vertex',(3.07153896662,-1.67798938511,1.7763568394E-015)) ;
#115=CARTESIAN_POINT('Axis2P3D Location',(0.,0.,0.)) ;
#125=CARTESIAN_POINT('Axis2P3D Location',(0.,0.,6.9)) ;
#130=CARTESIAN_POINT('Axis2P3D Location',(0.,0.,-2.5)) ;
#134=CARTESIAN_POINT('Vertex',(-3.5,0.,-2.5)) ;
#136=CARTESIAN_POINT('Vertex',(3.07153896662,-1.67798938511,-2.5)) ;
#139=CARTESIAN_POINT('Axis2P3D Location',(0.,0.,-2.5)) ;
#143=CARTESIAN_POINT('Vertex',(-3.07153896662,1.67798938511,-2.5)) ;
#146=CARTESIAN_POINT('Line Origine',(-3.07153896662,1.67798938511,-16.5)) ;
#151=CARTESIAN_POINT('Line Origine',(3.07153896662,-1.67798938511,-16.5)) ;
#164=CARTESIAN_POINT('Axis2P3D Location',(0.,0.,-2.5)) ;
#176=CARTESIAN_POINT('Axis2P3D Location',(-3.5,0.,-3.)) ;
#181=CARTESIAN_POINT('Line Origine',(-3.5,5.82076609135E-011,-3.)) ;
#185=CARTESIAN_POINT('Vertex',(-3.5,-10.,-3.)) ;
#187=CARTESIAN_POINT('Vertex',(-3.5,10.0000000001,-3.)) ;
#190=CARTESIAN_POINT('Line Origine',(-3.5,10.0000000001,-2.75)) ;
#194=CARTESIAN_POINT('Vertex',(-3.5,10.0000000001,-2.5)) ;
#197=CARTESIAN_POINT('Line Origine',(-3.5,5.00000000006,-2.5)) ;
#202=CARTESIAN_POINT('Line Origine',(-3.5,-5.,-2.5)) ;
#206=CARTESIAN_POINT('Vertex',(-3.5,-10.,-2.5)) ;
#209=CARTESIAN_POINT('Line Origine',(-3.5,-10.0000000001,-2.75)) ;
#222=CARTESIAN_POINT('Axis2P3D Location',(-7.5,10.,0.)) ;
#227=CARTESIAN_POINT('Line Origine',(-7.5,10.,2.00000000006)) ;
#231=CARTESIAN_POINT('Vertex',(-7.5,10.0000000001,-3.)) ;
#233=CARTESIAN_POINT('Vertex',(-7.5,10.,7.)) ;
#236=CARTESIAN_POINT('Line Origine',(2.5,10.,7.)) ;
#240=CARTESIAN_POINT('Vertex',(12.5,10.,7.)) ;
#243=CARTESIAN_POINT('Line Origine',(12.5,10.,5.)) ;
#247=CARTESIAN_POINT('Vertex',(12.5,10.,2.99999999994)) ;
#250=CARTESIAN_POINT('Line Origine',(10.,10.,3.)) ;
#254=CARTESIAN_POINT('Vertex',(7.5,10.0000000001,3.)) ;
#257=CARTESIAN_POINT('Line Origine',(7.5,10.,0.25)) ;
#261=CARTESIAN_POINT('Vertex',(7.5,10.0000000001,-2.5)) ;
#264=CARTESIAN_POINT('Line Origine',(2.,10.,-2.5)) ;
#269=CARTESIAN_POINT('Line Origine',(-5.5,10.,-3.)) ;
#285=CARTESIAN_POINT('Axis2P3D Location',(-7.5,0.,-3.)) ;
#290=CARTESIAN_POINT('Line Origine',(-7.5,2.91038304567E-011,-3.)) ;
#294=CARTESIAN_POINT('Vertex',(-7.5,-10.,-3.)) ;
#297=CARTESIAN_POINT('Line Origine',(-5.5,-10.0000000001,-3.)) ;
#309=CARTESIAN_POINT('Axis2P3D Location',(7.5,0.,3.)) ;
#314=CARTESIAN_POINT('Line Origine',(7.5,5.82076609135E-011,3.)) ;
#318=CARTESIAN_POINT('Vertex',(7.5,-10.,3.)) ;
#321=CARTESIAN_POINT('Line Origine',(12.5,2.91038304567E-011,3.)) ;
#325=CARTESIAN_POINT('Vertex',(12.5,-10.,2.99999999994)) ;
#328=CARTESIAN_POINT('Line Origine',(10.,-10.,3.)) ;
#340=CARTESIAN_POINT('Axis2P3D Location',(-7.5,0.,7.)) ;
#345=CARTESIAN_POINT('Line Origine',(-7.5,-10.,2.00000000006)) ;
#349=CARTESIAN_POINT('Vertex',(-7.5,-10.,7.)) ;
#352=CARTESIAN_POINT('Line Origine',(-7.5,2.91038304567E-011,7.)) ;
#364=CARTESIAN_POINT('Axis2P3D Location',(12.5,0.,3.)) ;
#369=CARTESIAN_POINT('Line Origine',(12.5,2.91038304567E-011,7.)) ;
#373=CARTESIAN_POINT('Vertex',(12.5,-10.,7.)) ;
#376=CARTESIAN_POINT('Line Origine',(12.5,-10.,5.)) ;
#388=CARTESIAN_POINT('Axis2P3D Location',(7.5,0.,-2.5)) ;
#393=CARTESIAN_POINT('Line Origine',(7.5,5.82076609135E-011,-2.5)) ;
#397=CARTESIAN_POINT('Vertex',(7.5,-10.,-2.5)) ;
#400=CARTESIAN_POINT('Line Origine',(7.5,-10.0000000001,0.25)) ;
#412=CARTESIAN_POINT('Axis2P3D Location',(12.5,-10.,0.)) ;
#417=CARTESIAN_POINT('Line Origine',(2.5,-10.,7.)) ;
#422=CARTESIAN_POINT('Line Origine',(2.,-10.,-2.5)) ;
#438=CARTESIAN_POINT('Axis2P3D Location',(12.5,0.,7.)) ;
#449=CARTESIAN_POINT('Axis2P3D Location',(0.,-4.4408920985E-016,7.)) ;
#453=CARTESIAN_POINT('Vertex',(-4.8267040904,2.63684046232,7.)) ;
#455=CARTESIAN_POINT('Vertex',(4.8267040904,-2.63684046232,7.)) ;
#458=CARTESIAN_POINT('Axis2P3D Location',(0.,1.33226762955E-015,7.)) ;
#468=CARTESIAN_POINT('Axis2P3D Location',(-3.5,0.,-2.5)) ;
#484=CARTESIAN_POINT('Axis2P3D Location',(0.,0.,6.9)) ;
#489=CARTESIAN_POINT('Line Origine',(4.8267040904,-2.63684046232,3.6550000001)) ;
#494=CARTESIAN_POINT('Line Origine',(-4.8267040904,2.63684046232,3.6550000001)) ;
#52=DIRECTION('Vector Direction',(1.,0.,0.)) ;
#64=DIRECTION('Vector Direction',(0.,1.,0.)) ;
#73=DIRECTION('Vector Direction',(0.,0.,1.)) ;
#84=DIRECTION('Axis2P3D Direction',(0.,0.,-1.)) ;
#85=DIRECTION('Axis2P3D XDirection',(1.,0.,0.)) ;
#89=DIRECTION('Axis2P3D Direction',(0.,0.,-1.)) ;
#98=DIRECTION('Axis2P3D Direction',(0.,0.,-1.)) ;
#107=DIRECTION('Axis2P3D Direction',(0.,0.,-1.)) ;
#116=DIRECTION('Axis2P3D Direction',(0.,0.,-1.)) ;
#126=DIRECTION('Axis2P3D Direction',(0.,-0.,-1.)) ;
#127=DIRECTION('Axis2P3D XDirection',(0.87758256189,-0.479425538604,0.)) ;
#131=DIRECTION('Axis2P3D Direction',(0.,-0.,-1.)) ;
#140=DIRECTION('Axis2P3D Direction',(0.,-0.,-1.)) ;
#147=DIRECTION('Vector Direction',(0.,0.,-1.)) ;
#152=DIRECTION('Vector Direction',(0.,0.,-1.)) ;
#165=DIRECTION('Axis2P3D Direction',(0.,-0.,-1.)) ;
#177=DIRECTION('Axis2P3D Direction',(-1.,0.,0.)) ;
#178=DIRECTION('Axis2P3D XDirection',(0.,0.,1.)) ;
#182=DIRECTION('Vector Direction',(0.,1.,0.)) ;
#191=DIRECTION('Vector Direction',(0.,-2.32830643654E-010,1.)) ;
#198=DIRECTION('Vector Direction',(0.,1.,0.)) ;
#203=DIRECTION('Vector Direction',(0.,1.,0.)) ;
#210=DIRECTION('Vector Direction',(0.,-2.32830643654E-010,1.)) ;
#223=DIRECTION('Axis2P3D Direction',(0.,-1.,0.)) ;
#224=DIRECTION('Axis2P3D XDirection',(1.,0.,0.)) ;
#228=DIRECTION('Vector Direction',(0.,0.,1.)) ;
#237=DIRECTION('Vector Direction',(-1.,0.,0.)) ;
#244=DIRECTION('Vector Direction',(0.,0.,1.)) ;
#251=DIRECTION('Vector Direction',(-1.,0.,0.)) ;
#258=DIRECTION('Vector Direction',(0.,0.,1.)) ;
#265=DIRECTION('Vector Direction',(1.,0.,0.)) ;
#270=DIRECTION('Vector Direction',(1.,0.,0.)) ;
#286=DIRECTION('Axis2P3D Direction',(0.,0.,1.)) ;
#287=DIRECTION('Axis2P3D XDirection',(1.,0.,0.)) ;
#291=DIRECTION('Vector Direction',(0.,1.,0.)) ;
#298=DIRECTION('Vector Direction',(1.,-2.91038304567E-011,0.)) ;
#310=DIRECTION('Axis2P3D Direction',(0.,0.,1.)) ;
#311=DIRECTION('Axis2P3D XDirection',(1.,0.,0.)) ;
#315=DIRECTION('Vector Direction',(0.,1.,0.)) ;
#322=DIRECTION('Vector Direction',(0.,1.,0.)) ;
#329=DIRECTION('Vector Direction',(-1.,0.,0.)) ;
#341=DIRECTION('Axis2P3D Direction',(1.,-0.,0.)) ;
#342=DIRECTION('Axis2P3D XDirection',(0.,0.,-1.)) ;
#346=DIRECTION('Vector Direction',(0.,0.,1.)) ;
#353=DIRECTION('Vector Direction',(0.,1.,0.)) ;
#365=DIRECTION('Axis2P3D Direction',(-1.,0.,0.)) ;
#366=DIRECTION('Axis2P3D XDirection',(0.,0.,1.)) ;
#370=DIRECTION('Vector Direction',(0.,1.,0.)) ;
#377=DIRECTION('Vector Direction',(0.,0.,1.)) ;
#389=DIRECTION('Axis2P3D Direction',(-1.,0.,0.)) ;
#390=DIRECTION('Axis2P3D XDirection',(0.,0.,1.)) ;
#394=DIRECTION('Vector Direction',(0.,1.,0.)) ;
#401=DIRECTION('Vector Direction',(0.,-2.11664221504E-011,1.)) ;
#413=DIRECTION('Axis2P3D Direction',(0.,1.,-0.)) ;
#414=DIRECTION('Axis2P3D XDirection',(-1.,0.,0.)) ;
#418=DIRECTION('Vector Direction',(-1.,0.,0.)) ;
#423=DIRECTION('Vector Direction',(1.,0.,0.)) ;
#439=DIRECTION('Axis2P3D Direction',(0.,0.,-1.)) ;
#440=DIRECTION('Axis2P3D XDirection',(-1.,0.,0.)) ;
#450=DIRECTION('Axis2P3D Direction',(0.,0.,-1.)) ;
#459=DIRECTION('Axis2P3D Direction',(0.,0.,-1.)) ;
#469=DIRECTION('Axis2P3D Direction',(0.,0.,1.)) ;
#470=DIRECTION('Axis2P3D XDirection',(1.,0.,0.)) ;
#485=DIRECTION('Axis2P3D Direction',(0.,-0.,-1.)) ;
#486=DIRECTION('Axis2P3D XDirection',(0.87758256189,-0.479425538604,0.)) ;
#490=DIRECTION('Vector Direction',(0.,0.,-1.)) ;
#495=DIRECTION('Vector Direction',(0.,0.,-1.)) ;
#48=AXIS2_PLACEMENT_3D(' ',#47,$,$) ;
#86=AXIS2_PLACEMENT_3D('Plane Axis2P3D',#83,#84,#85) ;
#90=AXIS2_PLACEMENT_3D('Circle Axis2P3D',#88,#89,$) ;
#99=AXIS2_PLACEMENT_3D('Circle Axis2P3D',#97,#98,$) ;
#108=AXIS2_PLACEMENT_3D('Circle Axis2P3D',#106,#107,$) ;
#117=AXIS2_PLACEMENT_3D('Circle Axis2P3D',#115,#116,$) ;
#128=AXIS2_PLACEMENT_3D('Cylinder Axis2P3D',#125,#126,#127) ;
#132=AXIS2_PLACEMENT_3D('Circle Axis2P3D',#130,#131,$) ;
#141=AXIS2_PLACEMENT_3D('Circle Axis2P3D',#139,#140,$) ;
#166=AXIS2_PLACEMENT_3D('Circle Axis2P3D',#164,#165,$) ;
#179=AXIS2_PLACEMENT_3D('Plane Axis2P3D',#176,#177,#178) ;
#225=AXIS2_PLACEMENT_3D('Plane Axis2P3D',#222,#223,#224) ;
#288=AXIS2_PLACEMENT_3D('Plane Axis2P3D',#285,#286,#287) ;
#312=AXIS2_PLACEMENT_3D('Plane Axis2P3D',#309,#310,#311) ;
#343=AXIS2_PLACEMENT_3D('Plane Axis2P3D',#340,#341,#342) ;
#367=AXIS2_PLACEMENT_3D('Plane Axis2P3D',#364,#365,#366) ;
#391=AXIS2_PLACEMENT_3D('Plane Axis2P3D',#388,#389,#390) ;
#415=AXIS2_PLACEMENT_3D('Plane Axis2P3D',#412,#413,#414) ;
#441=AXIS2_PLACEMENT_3D('Plane Axis2P3D',#438,#439,#440) ;
#451=AXIS2_PLACEMENT_3D('Circle Axis2P3D',#449,#450,$) ;
#460=AXIS2_PLACEMENT_3D('Circle Axis2P3D',#458,#459,$) ;
#471=AXIS2_PLACEMENT_3D('Plane Axis2P3D',#468,#469,#470) ;
#487=AXIS2_PLACEMENT_3D('Cylinder Axis2P3D',#484,#485,#486) ;
#40=PRODUCT_DEFINITION_SHAPE(' ',' ',#14) ;
#59=COMPOSITE_CURVE('Linea.1',(#58),.U.) ;
#71=COMPOSITE_CURVE('Linea.2',(#70),.U.) ;
#80=COMPOSITE_CURVE('Linea.3',(#79),.U.) ;
#58=COMPOSITE_CURVE_SEGMENT(.DISCONTINUOUS.,.T.,#57) ;
#70=COMPOSITE_CURVE_SEGMENT(.DISCONTINUOUS.,.T.,#69) ;
#79=COMPOSITE_CURVE_SEGMENT(.DISCONTINUOUS.,.T.,#78) ;
#31=APPROVAL_PERSON_ORGANIZATION(#25,#21,#19) ;
#25=PERSON_AND_ORGANIZATION(#22,#23) ;
#22=PERSON(' ',' ',' ',$,$,$) ;
#23=ORGANIZATION(' ',' ',' ') ;
#21=APPROVAL(#20,' ') ;
#20=APPROVAL_STATUS('not_yet_approved') ;
#19=APPROVAL_ROLE('APPROVER') ;
#13=DATE_AND_TIME(#11,#12) ;
#12=LOCAL_TIME(10,6,31.,#10) ;
#10=COORDINATED_UNIVERSAL_TIME_OFFSET(0,0,.AHEAD.) ;
#103=ORIENTED_EDGE('',*,*,#96,.F.) ;
#104=ORIENTED_EDGE('',*,*,#101,.F.) ;
#121=ORIENTED_EDGE('',*,*,#114,.T.) ;
#122=ORIENTED_EDGE('',*,*,#119,.T.) ;
#157=ORIENTED_EDGE('',*,*,#138,.F.) ;
#158=ORIENTED_EDGE('',*,*,#145,.F.) ;
#159=ORIENTED_EDGE('',*,*,#150,.T.) ;
#160=ORIENTED_EDGE('',*,*,#119,.F.) ;
#161=ORIENTED_EDGE('',*,*,#155,.F.) ;
#170=ORIENTED_EDGE('',*,*,#168,.F.) ;
#171=ORIENTED_EDGE('',*,*,#155,.T.) ;
#172=ORIENTED_EDGE('',*,*,#114,.F.) ;
#173=ORIENTED_EDGE('',*,*,#150,.F.) ;
#215=ORIENTED_EDGE('',*,*,#189,.T.) ;
#216=ORIENTED_EDGE('',*,*,#196,.T.) ;
#217=ORIENTED_EDGE('',*,*,#201,.F.) ;
#218=ORIENTED_EDGE('',*,*,#208,.F.) ;
#219=ORIENTED_EDGE('',*,*,#213,.F.) ;
#275=ORIENTED_EDGE('',*,*,#235,.T.) ;
#276=ORIENTED_EDGE('',*,*,#242,.F.) ;
#277=ORIENTED_EDGE('',*,*,#249,.F.) ;
#278=ORIENTED_EDGE('',*,*,#256,.T.) ;
#279=ORIENTED_EDGE('',*,*,#263,.F.) ;
#280=ORIENTED_EDGE('',*,*,#268,.F.) ;
#281=ORIENTED_EDGE('',*,*,#196,.F.) ;
#282=ORIENTED_EDGE('',*,*,#273,.F.) ;
#303=ORIENTED_EDGE('',*,*,#296,.T.) ;
#304=ORIENTED_EDGE('',*,*,#273,.T.) ;
#305=ORIENTED_EDGE('',*,*,#189,.F.) ;
#306=ORIENTED_EDGE('',*,*,#301,.F.) ;
#334=ORIENTED_EDGE('',*,*,#320,.T.) ;
#335=ORIENTED_EDGE('',*,*,#256,.F.) ;
#336=ORIENTED_EDGE('',*,*,#327,.F.) ;
#337=ORIENTED_EDGE('',*,*,#332,.T.) ;
#358=ORIENTED_EDGE('',*,*,#351,.T.) ;
#359=ORIENTED_EDGE('',*,*,#356,.T.) ;
#360=ORIENTED_EDGE('',*,*,#235,.F.) ;
#361=ORIENTED_EDGE('',*,*,#296,.F.) ;
#382=ORIENTED_EDGE('',*,*,#249,.T.) ;
#383=ORIENTED_EDGE('',*,*,#375,.F.) ;
#384=ORIENTED_EDGE('',*,*,#380,.F.) ;
#385=ORIENTED_EDGE('',*,*,#327,.T.) ;
#406=ORIENTED_EDGE('',*,*,#399,.T.) ;
#407=ORIENTED_EDGE('',*,*,#263,.T.) ;
#408=ORIENTED_EDGE('',*,*,#320,.F.) ;
#409=ORIENTED_EDGE('',*,*,#404,.F.) ;
#428=ORIENTED_EDGE('',*,*,#380,.T.) ;
#429=ORIENTED_EDGE('',*,*,#421,.T.) ;
#430=ORIENTED_EDGE('',*,*,#351,.F.) ;
#431=ORIENTED_EDGE('',*,*,#301,.T.) ;
#432=ORIENTED_EDGE('',*,*,#213,.T.) ;
#433=ORIENTED_EDGE('',*,*,#426,.T.) ;
#434=ORIENTED_EDGE('',*,*,#404,.T.) ;
#435=ORIENTED_EDGE('',*,*,#332,.F.) ;
#444=ORIENTED_EDGE('',*,*,#375,.T.) ;
#445=ORIENTED_EDGE('',*,*,#242,.T.) ;
#446=ORIENTED_EDGE('',*,*,#356,.F.) ;
#447=ORIENTED_EDGE('',*,*,#421,.F.) ;
#464=ORIENTED_EDGE('',*,*,#457,.T.) ;
#465=ORIENTED_EDGE('',*,*,#462,.T.) ;
#474=ORIENTED_EDGE('',*,*,#138,.T.) ;
#475=ORIENTED_EDGE('',*,*,#168,.T.) ;
#476=ORIENTED_EDGE('',*,*,#145,.T.) ;
#477=ORIENTED_EDGE('',*,*,#201,.T.) ;
#478=ORIENTED_EDGE('',*,*,#268,.T.) ;
#479=ORIENTED_EDGE('',*,*,#399,.F.) ;
#480=ORIENTED_EDGE('',*,*,#426,.F.) ;
#481=ORIENTED_EDGE('',*,*,#208,.T.) ;
#500=ORIENTED_EDGE('',*,*,#462,.F.) ;
#501=ORIENTED_EDGE('',*,*,#493,.F.) ;
#502=ORIENTED_EDGE('',*,*,#96,.T.) ;
#503=ORIENTED_EDGE('',*,*,#498,.T.) ;
#507=ORIENTED_EDGE('',*,*,#457,.F.) ;
#508=ORIENTED_EDGE('',*,*,#498,.F.) ;
#509=ORIENTED_EDGE('',*,*,#101,.T.) ;
#510=ORIENTED_EDGE('',*,*,#493,.T.) ;
#123=FACE_BOUND('',#120,.T.) ;
#466=FACE_BOUND('',#463,.T.) ;
#82=CLOSED_SHELL('Closed Shell',(#124,#163,#175,#221,#284,#308,#339,#363,#387,#411,#437,#467,#483,#505,#512)) ;
#53=VECTOR('Line Direction',#52,1.) ;
#65=VECTOR('Line Direction',#64,1.) ;
#74=VECTOR('Line Direction',#73,1.) ;
#148=VECTOR('Line Direction',#147,1.) ;
#153=VECTOR('Line Direction',#152,1.) ;
#183=VECTOR('Line Direction',#182,1.) ;
#192=VECTOR('Line Direction',#191,1.) ;
#199=VECTOR('Line Direction',#198,1.) ;
#204=VECTOR('Line Direction',#203,1.) ;
#211=VECTOR('Line Direction',#210,1.) ;
#229=VECTOR('Line Direction',#228,1.) ;
#238=VECTOR('Line Direction',#237,1.) ;
#245=VECTOR('Line Direction',#244,1.) ;
#252=VECTOR('Line Direction',#251,1.) ;
#259=VECTOR('Line Direction',#258,1.) ;
#266=VECTOR('Line Direction',#265,1.) ;
#271=VECTOR('Line Direction',#270,1.) ;
#292=VECTOR('Line Direction',#291,1.) ;
#299=VECTOR('Line Direction',#298,1.) ;
#316=VECTOR('Line Direction',#315,1.) ;
#323=VECTOR('Line Direction',#322,1.) ;
#330=VECTOR('Line Direction',#329,1.) ;
#347=VECTOR('Line Direction',#346,1.) ;
#354=VECTOR('Line Direction',#353,1.) ;
#371=VECTOR('Line Direction',#370,1.) ;
#378=VECTOR('Line Direction',#377,1.) ;
#395=VECTOR('Line Direction',#394,1.) ;
#402=VECTOR('Line Direction',#401,1.) ;
#419=VECTOR('Line Direction',#418,1.) ;
#424=VECTOR('Line Direction',#423,1.) ;
#491=VECTOR('Line Direction',#490,1.) ;
#496=VECTOR('Line Direction',#495,1.) ;
#514=ADVANCED_BREP_SHAPE_REPRESENTATION('NONE',(#513),#46) ;
#49=SHAPE_REPRESENTATION(' ',(#48),#46) ;
#124=ADVANCED_FACE('PartBody',(#105,#123),#87,.F.) ;
#163=ADVANCED_FACE('PartBody',(#162),#129,.F.) ;
#175=ADVANCED_FACE('PartBody',(#174),#129,.F.) ;
#221=ADVANCED_FACE('PartBody',(#220),#180,.F.) ;
#284=ADVANCED_FACE('PartBody',(#283),#226,.F.) ;
#308=ADVANCED_FACE('PartBody',(#307),#289,.F.) ;
#339=ADVANCED_FACE('PartBody',(#338),#313,.F.) ;
#363=ADVANCED_FACE('PartBody',(#362),#344,.F.) ;
#387=ADVANCED_FACE('PartBody',(#386),#368,.F.) ;
#411=ADVANCED_FACE('PartBody',(#410),#392,.F.) ;
#437=ADVANCED_FACE('PartBody',(#436),#416,.F.) ;
#467=ADVANCED_FACE('PartBody',(#448,#466),#442,.F.) ;
#483=ADVANCED_FACE('PartBody',(#482),#472,.F.) ;
#505=ADVANCED_FACE('PartBody',(#504),#488,.F.) ;
#512=ADVANCED_FACE('PartBody',(#511),#488,.F.) ;
#4=APPLICATION_PROTOCOL_DEFINITION('international standard','config_control_design',1994,#1) ;
#32=APPROVAL_DATE_TIME(#13,#21) ;
#513=MANIFOLD_SOLID_BREP('PartBody',#82) ;
#11=CALENDAR_DATE(2017,8,3) ;
#30=CC_DESIGN_APPROVAL(#21,(#16,#6,#14)) ;
#18=CC_DESIGN_DATE_AND_TIME_ASSIGNMENT(#13,#17,(#16)) ;
#29=CC_DESIGN_DATE_AND_TIME_ASSIGNMENT(#13,#28,(#14)) ;
#17=DATE_TIME_ROLE('classification_date') ;
#28=DATE_TIME_ROLE('creation_date') ;
#27=CC_DESIGN_PERSON_AND_ORGANIZATION_ASSIGNMENT(#25,#26,(#16)) ;
#33=CC_DESIGN_PERSON_AND_ORGANIZATION_ASSIGNMENT(#25,#34,(#6)) ;
#35=CC_DESIGN_PERSON_AND_ORGANIZATION_ASSIGNMENT(#25,#36,(#6,#14)) ;
#37=CC_DESIGN_PERSON_AND_ORGANIZATION_ASSIGNMENT(#25,#38,(#5)) ;
#26=PERSON_AND_ORGANIZATION_ROLE('classification_officer') ;
#34=PERSON_AND_ORGANIZATION_ROLE('design_supplier') ;
#36=PERSON_AND_ORGANIZATION_ROLE('creator') ;
#38=PERSON_AND_ORGANIZATION_ROLE('design_owner') ;
#39=CC_DESIGN_SECURITY_CLASSIFICATION(#16,(#6)) ;
#91=CIRCLE('generated circle',#90,5.5) ;
#100=CIRCLE('generated circle',#99,5.5) ;
#109=CIRCLE('generated circle',#108,3.5) ;
#118=CIRCLE('generated circle',#117,3.5) ;
#133=CIRCLE('generated circle',#132,3.5) ;
#142=CIRCLE('generated circle',#141,3.5) ;
#167=CIRCLE('generated circle',#166,3.5) ;
#452=CIRCLE('generated circle',#451,5.5) ;
#461=CIRCLE('generated circle',#460,5.5) ;
#62=SHAPE_REPRESENTATION_RELATIONSHIP(' ',' ',#49,#60) ;
#515=SHAPE_REPRESENTATION_RELATIONSHIP(' ',' ',#49,#514) ;
#129=CYLINDRICAL_SURFACE('generated cylinder',#128,3.5) ;
#488=CYLINDRICAL_SURFACE('generated cylinder',#487,5.5) ;
#3=DESIGN_CONTEXT(' ',#1,'design') ;
#96=EDGE_CURVE('',#93,#95,#91,.T.) ;
#101=EDGE_CURVE('',#95,#93,#100,.T.) ;
#114=EDGE_CURVE('',#111,#113,#109,.T.) ;
#119=EDGE_CURVE('',#113,#111,#118,.T.) ;
#138=EDGE_CURVE('',#135,#137,#133,.F.) ;
#145=EDGE_CURVE('',#144,#135,#142,.F.) ;
#150=EDGE_CURVE('',#144,#111,#149,.F.) ;
#155=EDGE_CURVE('',#137,#113,#154,.F.) ;
#168=EDGE_CURVE('',#137,#144,#167,.F.) ;
#189=EDGE_CURVE('',#186,#188,#184,.T.) ;
#196=EDGE_CURVE('',#188,#195,#193,.T.) ;
#201=EDGE_CURVE('',#135,#195,#200,.T.) ;
#208=EDGE_CURVE('',#207,#135,#205,.T.) ;
#213=EDGE_CURVE('',#186,#207,#212,.T.) ;
#235=EDGE_CURVE('',#232,#234,#230,.T.) ;
#242=EDGE_CURVE('',#241,#234,#239,.T.) ;
#249=EDGE_CURVE('',#248,#241,#246,.T.) ;
#256=EDGE_CURVE('',#248,#255,#253,.T.) ;
#263=EDGE_CURVE('',#262,#255,#260,.T.) ;
#268=EDGE_CURVE('',#195,#262,#267,.T.) ;
#273=EDGE_CURVE('',#232,#188,#272,.T.) ;
#296=EDGE_CURVE('',#295,#232,#293,.T.) ;
#301=EDGE_CURVE('',#295,#186,#300,.T.) ;
#320=EDGE_CURVE('',#319,#255,#317,.T.) ;
#327=EDGE_CURVE('',#326,#248,#324,.T.) ;
#332=EDGE_CURVE('',#326,#319,#331,.T.) ;
#351=EDGE_CURVE('',#295,#350,#348,.T.) ;
#356=EDGE_CURVE('',#350,#234,#355,.T.) ;
#375=EDGE_CURVE('',#374,#241,#372,.T.) ;
#380=EDGE_CURVE('',#326,#374,#379,.T.) ;
#399=EDGE_CURVE('',#398,#262,#396,.T.) ;
#404=EDGE_CURVE('',#398,#319,#403,.T.) ;
#421=EDGE_CURVE('',#374,#350,#420,.T.) ;
#426=EDGE_CURVE('',#207,#398,#425,.T.) ;
#457=EDGE_CURVE('',#454,#456,#452,.T.) ;
#462=EDGE_CURVE('',#456,#454,#461,.T.) ;
#493=EDGE_CURVE('',#93,#456,#492,.F.) ;
#498=EDGE_CURVE('',#95,#454,#497,.F.) ;
#102=EDGE_LOOP('',(#103,#104)) ;
#120=EDGE_LOOP('',(#121,#122)) ;
#156=EDGE_LOOP('',(#157,#158,#159,#160,#161)) ;
#169=EDGE_LOOP('',(#170,#171,#172,#173)) ;
#214=EDGE_LOOP('',(#215,#216,#217,#218,#219)) ;
#274=EDGE_LOOP('',(#275,#276,#277,#278,#279,#280,#281,#282)) ;
#302=EDGE_LOOP('',(#303,#304,#305,#306)) ;
#333=EDGE_LOOP('',(#334,#335,#336,#337)) ;
#357=EDGE_LOOP('',(#358,#359,#360,#361)) ;
#381=EDGE_LOOP('',(#382,#383,#384,#385)) ;
#405=EDGE_LOOP('',(#406,#407,#408,#409)) ;
#427=EDGE_LOOP('',(#428,#429,#430,#431,#432,#433,#434,#435)) ;
#443=EDGE_LOOP('',(#444,#445,#446,#447)) ;
#463=EDGE_LOOP('',(#464,#465)) ;
#473=EDGE_LOOP('',(#474,#475,#476,#477,#478,#479,#480,#481)) ;
#499=EDGE_LOOP('',(#500,#501,#502,#503)) ;
#506=EDGE_LOOP('',(#507,#508,#509,#510)) ;
#105=FACE_OUTER_BOUND('',#102,.T.) ;
#162=FACE_OUTER_BOUND('',#156,.T.) ;
#174=FACE_OUTER_BOUND('',#169,.T.) ;
#220=FACE_OUTER_BOUND('',#214,.T.) ;
#283=FACE_OUTER_BOUND('',#274,.T.) ;
#307=FACE_OUTER_BOUND('',#302,.T.) ;
#338=FACE_OUTER_BOUND('',#333,.T.) ;
#362=FACE_OUTER_BOUND('',#357,.T.) ;
#386=FACE_OUTER_BOUND('',#381,.T.) ;
#410=FACE_OUTER_BOUND('',#405,.T.) ;
#436=FACE_OUTER_BOUND('',#427,.T.) ;
#448=FACE_OUTER_BOUND('',#443,.T.) ;
#482=FACE_OUTER_BOUND('',#473,.T.) ;
#504=FACE_OUTER_BOUND('',#499,.T.) ;
#511=FACE_OUTER_BOUND('',#506,.T.) ;
#61=GEOMETRIC_SET('NONE',(#59,#71,#80,#81)) ;
#60=GEOMETRICALLY_BOUNDED_SURFACE_SHAPE_REPRESENTATION('NONE',(#61),#46) ;
#45=UNCERTAINTY_MEASURE_WITH_UNIT(LENGTH_MEASURE(0.005),#41,'distance_accuracy_value','CONFUSED CURVE UNCERTAINTY') ;
#54=LINE('Line',#51,#53) ;
#66=LINE('Line',#63,#65) ;
#75=LINE('Line',#72,#74) ;
#149=LINE('Line',#146,#148) ;
#154=LINE('Line',#151,#153) ;
#184=LINE('Line',#181,#183) ;
#193=LINE('Line',#190,#192) ;
#200=LINE('Line',#197,#199) ;
#205=LINE('Line',#202,#204) ;
#212=LINE('Line',#209,#211) ;
#230=LINE('Line',#227,#229) ;
#239=LINE('Line',#236,#238) ;
#246=LINE('Line',#243,#245) ;
#253=LINE('Line',#250,#252) ;
#260=LINE('Line',#257,#259) ;
#267=LINE('Line',#264,#266) ;
#272=LINE('Line',#269,#271) ;
#293=LINE('Line',#290,#292) ;
#300=LINE('Line',#297,#299) ;
#317=LINE('Line',#314,#316) ;
#324=LINE('Line',#321,#323) ;
#331=LINE('Line',#328,#330) ;
#348=LINE('Line',#345,#347) ;
#355=LINE('Line',#352,#354) ;
#372=LINE('Line',#369,#371) ;
#379=LINE('Line',#376,#378) ;
#396=LINE('Line',#393,#395) ;
#403=LINE('Line',#400,#402) ;
#420=LINE('Line',#417,#419) ;
#425=LINE('Line',#422,#424) ;
#492=LINE('Line',#489,#491) ;
#497=LINE('Line',#494,#496) ;
#2=MECHANICAL_CONTEXT(' ',#1,'mechanical') ;
#24=PERSONAL_ADDRESS(' ',' ',' ',' ',' ',' ',' ',' ',' ',' ',' ',' ',(#22),' ') ;
#87=PLANE('Plane',#86) ;
#180=PLANE('Plane',#179) ;
#226=PLANE('Plane',#225) ;
#289=PLANE('Plane',#288) ;
#313=PLANE('Plane',#312) ;
#344=PLANE('Plane',#343) ;
#368=PLANE('Plane',#367) ;
#392=PLANE('Plane',#391) ;
#416=PLANE('Plane',#415) ;
#442=PLANE('Plane',#441) ;
#472=PLANE('Plane',#471) ;
#43=PLANE_ANGLE_MEASURE_WITH_UNIT(PLANE_ANGLE_MEASURE(0.0174532925199),#42) ;
#7=PRODUCT_CATEGORY('part',$) ;
#9=PRODUCT_CATEGORY_RELATIONSHIP(' ',' ',#7,#8) ;
#6=PRODUCT_DEFINITION_FORMATION_WITH_SPECIFIED_SOURCE('',' ',#5,.NOT_KNOWN.) ;
#8=PRODUCT_RELATED_PRODUCT_CATEGORY('detail',$,(#5)) ;
#50=SHAPE_DEFINITION_REPRESENTATION(#40,#49) ;
#57=TRIMMED_CURVE('',#54,(#55),(#56),.T.,.CARTESIAN.) ;
#69=TRIMMED_CURVE('',#66,(#67),(#68),.T.,.CARTESIAN.) ;
#78=TRIMMED_CURVE('',#75,(#76),(#77),.T.,.CARTESIAN.) ;
#93=VERTEX_POINT('',#92) ;
#95=VERTEX_POINT('',#94) ;
#111=VERTEX_POINT('',#110) ;
#113=VERTEX_POINT('',#112) ;
#135=VERTEX_POINT('',#134) ;
#137=VERTEX_POINT('',#136) ;
#144=VERTEX_POINT('',#143) ;
#186=VERTEX_POINT('',#185) ;
#188=VERTEX_POINT('',#187) ;
#195=VERTEX_POINT('',#194) ;
#207=VERTEX_POINT('',#206) ;
#232=VERTEX_POINT('',#231) ;
#234=VERTEX_POINT('',#233) ;
#241=VERTEX_POINT('',#240) ;
#248=VERTEX_POINT('',#247) ;
#255=VERTEX_POINT('',#254) ;
#262=VERTEX_POINT('',#261) ;
#295=VERTEX_POINT('',#294) ;
#319=VERTEX_POINT('',#318) ;
#326=VERTEX_POINT('',#325) ;
#350=VERTEX_POINT('',#349) ;
#374=VERTEX_POINT('',#373) ;
#398=VERTEX_POINT('',#397) ;
#454=VERTEX_POINT('',#453) ;
#456=VERTEX_POINT('',#455) ;
#41=(LENGTH_UNIT()NAMED_UNIT(*)SI_UNIT(.MILLI.,.METRE.)) ;
#42=(NAMED_UNIT(*)PLANE_ANGLE_UNIT()SI_UNIT($,.RADIAN.)) ;
#44=(NAMED_UNIT(*)SI_UNIT($,.STERADIAN.)SOLID_ANGLE_UNIT()) ;
#46=(GEOMETRIC_REPRESENTATION_CONTEXT(3)GLOBAL_UNCERTAINTY_ASSIGNED_CONTEXT((#45))GLOBAL_UNIT_ASSIGNED_CONTEXT((#41,#42,#44))REPRESENTATION_CONTEXT(' ',' ')) ;
ENDSEC;
END-ISO-10303-21;
